100 FAMOUS ROCK GUITAR RIFFS

1. Summertime Blues ( 1958 ) - Eddie Cochran 0:25
E--------------------
B--------------------
G--------------------
D--------------------   E / / A  B7 / / E
A---6/7--7--7--(x4)--
E---0----0--0--------

2. Heartbreak Hotel - Elvis Presley 0:35 
E----12------------------12-----12--------------------
B----12-(x4)--12--15---------12-(x4)--12--15\--
G--------------------------------------------------------
D--------------------------------------------------------
A--------------------------------------------------------
E--------------------------------------------------------

E----12-------------------12------12-----12-----12---------
B----12-(x4)--12--15-------15b---15b---15b---(x4)----
G----------------------------------------------------------------
D----------------------------------------------------------------
A----------------------------------------------------------------
E----------------------------------------------------------------


3. Twist and Shout - The Beatles 0:44
E---------------------2------------0----------------
B---------------------3------------2----------------
G---------------------2------------2----------------
D-----------------0--0------------2----------------
A---0---2---4---------------------0---0---0---0--
E--------------------------3----3-------------------

4. Please Please Me - The Beatles 0:52
E------0---0---0---0----0---0---0--
B------5---4---2---0----2---0---0--
G------4---4---4---4----4---4---1--
D---------------------------------------
A---------------------------------------
E---0-----------------------------------

5. A Hard Day's Night - The Beatles 1:01
E-----------------------------------------------------13-(x3)---------------------
B--------------11--13--11---13/15----13h15------------13\11-------------
G---12---12-----------------------------------------------------------12--12---
D-----------------------------------------------------------------------------------
A-----------------------------------------------------------------------------------
E-----------------------------------------------------------------------------------

6. Eight Days a Week - The Beatles 1:14
E----0-------------0-------------0--------------0----
B---10-12-10---12-14-12---15-17-15---10---
G---11------------13-----------16------------11---
D---12------------14-----------17------------12---
A----0-------------0-------------0--------------0----
E-------------------------------------------------------

7. California Girls - The Beach Boys 1:22
E------------------------------------------------------
B----------9--------7--------------------------------
G----------9--------8--------9--8----------(x2)---
D----9----9----9---9----9---------9--11----------
A-----------------------------------------------------
E-----------------------------------------------------

E-------------------------------------------------------------
B-----------7--------5---------------------------------------
G-----------7--------6---------7--6---------------(2.-6)--
D----7-----7----7---7-----7---------7---(1.-9)-----------
A-------------------------------------------------------------
E-------------------------------------------------------------

8. Help! - The Beatles 1:40 
E----2--------------3--------------0-------
B----3--------------3--------------0-------
G----4--------------0--------------1-------
D----4--------------0--------------2-------
A----2-----2--0----2--------------2-------
E--------------------3-----3--2----0-------

E---------------------------------------------------
B-----------0----------0----------0----------0---
G--------0----------0----------0--------- 0------
D------5----------4----------3----------2--------  A
A----7---------6----------5----------4------------
E----------------------------------------------------

9. Turn Turn Turn - The Byrds 1:54
E-------0-----------2----0--------0--------0-------0--------0-----2---0---
B---------3---------3----2-----------3--------0-------0-------0---3---2---
G--------------------4----2------------------------------------------4---2---
D-0--------2--------4----2---0--------2--------4--------5--------4---2---
A-------------------------------------------------------------------------------
E-------------------------------------------------------------------------------

10. My Girl - The Temptations 2:08
E-------------------------------------------------------------------------------
B------------------------1-------------------------------------------------1--
G---------------0--2-----------------------------------------------0--2-----
D--------0--2-------------------------------0--------------0--2------------
A---3----------------------(x3)----------0-----3--0---3-------------------
E----------------------------------1--3--------------------------------------

11. Along Comes Mary - The Association 2:17
E----------------------------------------
B---------------------------------------
G---------------------------------------
D-------------------0--2--------------
A--------------0-----------------------
E---0--3--4---------------5--3--5---

E----------------------------------------------------
B----------------------------------------------------
G------------------0--2----------------------------
D---------------------------------------------------
A---0--3--5--5----------3--5--3--5-------------
E----------------------------------------0--3--4---  Am Bm/A

12. Last Train to Clarksville - The Monkees 2:32
E---------------------------------------
B-----------------0-------0--------0--
G-------0-----0-------0--------0-----
D----------3-------2--------0--------
A--------------------------------------
E---3---------------------------------

13. Windy - The Association 2:41 
E--------------------------------------------
B--------------------------------------------
G-------------------------------------------
D------------------------------------------- (x3)
A-------3------------/5--5--3---------3--
E---5-----5--3--1--------------3h5-----

E--------------------------------
B--------------------------------
G--------------------------------
D--------------------------------
A-------3------------------------
E----5-----5---3---1---3---1--

14.House of the Rising Sun - The Animals 2:55
Am C D F Am E Am E

15. Happy Together - The Turtles 3:08
E-----------5--4--2------------2--0--2--
B----------2--2----------------2--2------
G------------------------------------------
D------4-----------------4----------------
A---4------------------4------------------
E------------------------------------------

16. 20th Century Fox - The Doors 3:18 
E----------------5-----------------------------5------------
B------------5----5---8-------------------5-----5--8-----
G------5h6--------------6p5h6------6-------------------
D---7-------------------------------7-------------------5--
A------------------------------------------------------------
E------------------------------------------------------------

17. Interstellar Overdrive - Pink Floyd 3:29
E----------------------------------------------------------------------0-----
B-------------------------------------------------------------------------0--
G----------------------------------------------------------------------------
D-----------------------------------------------------------------2---------
A--------------2-2-1-2-1--0-0----0---------------------------2---------
E---0-0-0-0---------------------4----4--3--3-3-3-3---2-2--0---------

18. California Dreaming - The Mamas and the Papas 3:55
E----------------------------------4--5--4------------------4----11---9----7---4---- 
B--------4------7--5--4--------------------7---5-------4-----------------------4----
G-----6-----------------------6-------------4---------6----------11---9---8---6----
D--6--------6-------------6----------------6-------6----------------------------4----
A----------------------------------------------------------------------------------6----
E----------------------------------------------------------------------------------4----

19. Let's Live For Today - The Grass Roots 4:05
E---9---9--9--11--9------7----7--7--12--11---
B----------------------------------------------------
G---------------------------------------------------
D---------------------------------------------------
A---------------------------------------------------
E---9-----------------------0----------------------

20. Jumpin' Jack Flash - The Rolling Stones 4:13
E--------------------------------------------
B--------------------------------------------
G---4--4------------2--------2--------2-- (x2)
D---4--4-----2-4------2-4------2-4-----
A---2--2-----------------------------------
E--------------------------------------------

21. Born to be Wild - Steppenwolf 4:23
E------------------------------------------------
B-----------------------------------------------
G---9----9--9--9----9--9----9----9----9--- (x2)
D---9----9--9--9----9--9----9----11--12-- 
A---7-------------------------------------------
E---0-------------------------------------------

22. Across the Universe - The Beatles 4:31
E---2------/10-------9----7----5-----------------------------------------
B---------------------------------------7-----2---2------------------------
G---2------/11-------9----7----6----------2---4-(x4)---2---4---------
D-------0---------0--------------------------4---4---------2---2-(x4)---
A-------------------------------------------------------------0-------------
E----------------------------------------------------------------------------

23. Michelle - The Beatles 4:42
E----------8------8-----8------8------8---6---------8---
B----------9------9-----9------9------6---6---9----8---
G----10------9------8------7------6-----------------9---
D------------------------------------------------------------
A------------------------------------------------------------
E------------------------------------------------------------

24. Hell, I Love You - The Doors 4:52
E------------------------------------------------------------------
B------------------------------------------------------------------
G------------------------------------------------------------------
D-----------7--7---------5--5-----------------------------------
A---------------------------------------7--5----2h3p2p0------
E---5--5----------3--3----------/5---------------------------2--

25. Proud Mary - CCR 5:02

C / A / C / A / C / A G F / / / D

26. Living Loving Maid - Led Zeppelin 5:11
E----------------------------------------------------------------------------------
B--------------------------------------------------------------5--------7----5---
G--------------------------------------------------------------6--------7----6---
D--------------------------------------------------------------7-(x3)---7----7--
A------3----3--4--5----------------3------------------------7--------5----7---
E--5-----5------------3--3--3--5-----5----3--5----3--5----------------------

27. The Lemon Song - Led Zeppelin 5:19
E--------------------------------------------------------
B----0--0--0--0--0--0--0--0----8-------------8----
G-----------------------------------7---x---x----7----
D-----------------------------------6---x---x----6----
A-----------------------------------7---x---x----7----
E----0--0--4--4--5--5--7--0\-----------------------

28. Spirit In The Sky - Norman Greenbaum 5:30 
E--------------------------------------------------------
B--------------------------------------------------------
G--------------------------------------------------------
D-----7---7---7---7-----------7---7---7---7---------
A---0---0---0---0----5--3--0---0---0---0----3--5--
E---------------------------------------------------------

29. Paranoid - Black Sabbath 5:43
E------------------------------------------------------------------- 
B-------------------------------------------------------------------
G-------------------------------------------------------------------
D-----------------------------------------12-14---------12------
A---12-14--12-14--12-14----12-14--------12-14-----14--
E---12-------12------12------------------------------------------

30. Wizard - Black Sabbath 5:50
E---------------------------------------------------------------------
B---------------------------------------------------------------------
G---------------------------------------------------------------------
D----------------------------------------------5--7------------------
A---7--7------8----7----3h5(x6)-3h5/7---------10--9--7--7--
E---5--5------6----5---------------------------------8---7--5--5--

31. N.I.B. - Black Sabbath 6:00
E----------------------------------------------------------
B-----------------------------------------------12--12--
G-----------------------------------------------12--12--
D---9--9--7--9----12--11--9--9--7--9----12--12--
A---7--7--5--7----10--9----7--7--5--7---------------
E----------------------------------------------------------

E------------------------------------------------------------
B------------------------------------------------------------
G------------------------------------------------------------
D---9--9--7--9----12--11--9--9--7--9----7h9-7h9--
A---7--7--5--7----10---9---7--7--5--7-----------------
E-------------------------------------------------------------

32. Starship Trooper - Yes 6:09
E---0---0--------0---------0-------0---------0---------0---------0--------0----------0----------------
B---0---0----------10-------10-------10------10--------10-------10-------10--------10------------
G---1---6----13-------11--------9-----------------13--------11--------9------------------------------
D---2---7----------------------------------13---------------------------------------13-------9h11p9--
A---2---7----------------------------------------------------------------------------------------------------
E---0---0----------------------------------------------------------------------------------------------------

33. Electric Funeral - Black Sabbath 6:19
E-------------------------------------------
B-------------------------------------------
G-------------------------------------------
D-------------------------------------------
A------------2h3p2----------------------- (x2)
E----0--0----------------0---2h3p2-----

E--------------------------------------------------------- 
B---------------------------------------------------------
G---------------------------------------------------------
D---------------------------------------------------------
A-------2---1--1--0------------------2---1--1--0-----
E---0------------------3---0-0-0-0-----------------3--

34. Sleeping Village - Black Sabbath 6:33
E-------------------------------------------------------
B-------------------------------------------------------
G-------------------------------------------------------
D-----5h7---5h7---7---------7--9p7----7--/14--
A-----0-------0------0---7/9------------9-----------
E-------------------------------------------------------

E------------------------------------------------
B------------------------------------------------
G------------------------------------------------
D-----5h7---5h7---7---------7--9b---7----
A-----0-------0------0---7/9-----------------
E------------------------------------------------

35. Misty Mountain Hop - Led Zeppelin 6:49
E------------------10-------------------------------------- 
B----------------------10b--10--8-----8--/10----------
G---9b--7-----7---------------------9-----------7--/9--
D-----------9----------------------------------------------
A-----------------------------------------------------------
E-----------------------------------------------------------

36. Sweet Leaf - Black Sabbath 6:59
E---------------------------------------
B---------------------------------------
G---------------------------------------
D--------------7--\5---------5---/7--
A----7--7-----5--\3----0---3---/5--
E----5--5------------------------------

E------------------------------------
B------------------------------------
G------------------------------------
D------------------------------------
A---7----5---10---14----7---7---
E---5----3---8----12-----5---5---

37. Lord of This World - Black Sabbath 7:18
E--------------------------------------------------- 
B---------------------------------------------------
G---------------------------------------------------
D---------------------------------------------------
A----7----7--7---5----4--5---/7----------------
E----0------------------------------/7---6---7---

38. Solitude - Black Sabbath 7:29
E-----------------------------------------------5-6-5-----5-5-
B-----------3----------------------------3-------------6-------
G-------3-----5---2-3-2-----------3-----5-------------------
D---5----------------------3----5------------------------------  Gm F Gm F
A----------------------------------------------------------------
E----------------------------------------------------------------

39. Uncle Albert - Wings 7:49
E-----------8--------------------8------------------------------------
B--------6----8---------------6----8--8--10--12--14--15--17--19--19--
G------7---------9---(x2)----7----------------------------------------
D---0------------10--------0------------------------------------------
A-------------------------------------------10--12--14--15--17--17--
E--------------8--------------------8--9--10--------------------------

40. After Forever- Black Sabbath 8:04
E---------------------------------------------------------
B---------------------------------------------------------
G---------------------------------------------------------
D---11--9--7-----9--9--7-----2--0--2-----2--2--0--
A---0---0--0-----0--0--0------0--0--0-----0--0--0--
E----------------------------------------------------------

41. If - Bread 8:15
E---0----0----0----0----0----0----1--------------0-
B---0----0----0----0----3----2----0-----------0----
G---6----4----4----2----2----2----2---------1------
D---7----6----5----4----3----2----0----------------
A-------------------------------------------2----------
E----------------------------------------0-------------

42. The Good Old Hockey Game - Stompin' Tim Connors 8:38
E----------------0--0-----------------------------
B-----------0---1--1--1---1---1---1---1---1--
G---0--/2--------------3---3---2---2---1---1--
D--------------------------------------------------
A---------------------------------------------------
E---------------------------------------------------

E------------------------------------3---
B------------------------------------3---
G--0--2--0-------------------------0---
D------------2--3--2--0-----------0---
A---------------------------2--3----2---
E-------------------------------------3---

43. Dancing Days - Led Zeppelin 8:46
E-----------------------------8-----8--/9-----9/11-----\8--
B-------------------5---8---8-----8--/9-----9/11-----\8--
G--------------5----------------------------------------------
D----------5--------------------------------------------------
A---3/7------------------------------------------------------
E-------------------------------------------------------------

44. The Rain Song - Led Zeppelin 9:01
E---3----2----1-1-1-1----------------------
B---3----3----3-3-4-3---4-----0---0--0--
G---0----0----0-0-0-0---3-----2---0--0--
D---0----0-----------------1-----0---0--0--
A----------------------------------------------
E---3----3----3------------3-----3----------

E-----------------------------------5---5----------6\5--
B---12---10---13----12----4---4---4----------7\6--
G------------------------------3---3---3---(x2)--5\4--
D------------------------------0---0---0----------6\5--
A---10---10---10----10--------------------------------
E------------------------------3---3---3-----------------

45. Snowblind - Black Sabbath 9:30 
E---------------------------------------0----------------------
B------------------------------------2---2---------4--4------
G----------------------------------2------2------4-----4-----
D---6---8---9---4---6---------2---------2---4--------4----
A---4---6---7---2---4---4\--0-------------2------------2--
E---------------------------------------------------------------

46. No Quarter - Led Zeppelin 9:41
E-----------------------------------------------------------------------------------
B-----------------------------------------------------------------------------------
G-----------------------------------------------------------------------------------
D---4/6--6--6--6--(x2)--4/6--6--6------------------------------------2------
A---2/4--4--4--4---------2/4--4--4-------------------------------2--------4--
E-----------------------------------------0h2--2--2--2--0---2h4----4---------

47. Make Me Do Anything You Want - A Foot In Cold Water 9:49
E-------------------------------------------------
B---3--3----3--3----3--3----3--3---2----3--
G---2--2----0--0----2--2----0--0---0----2--
D---0--0----0--0----0--0------------------0--
A-------------------------------0--0---0--------
E-------------0--0----2--2----------------------

48. Freebird Intro - Lynyrd Skynyrd 9:59
E-----------------------------------------------------------------
B--3(S)--8-----7-8-7-----8--8--7----------------------------
G-------------------------------------9--7--9--11--9--7--9--
D----------------------------------------------------------------
A----------------------------------------------------------------
E----------------------------------------------------------------

E-----------------------------------------------
B-----------------------------------------------
G--9--7-------------10--10--10--9---------
D--------9--9--10-------------------10------
A-----------------------------------------10---
E-----------------------------------------------

E---------------------------------------------
B---------------------------------------------
G--4--5---7-6-7----19-17------17-19--
D------------------------------19-----------
A--------------------------------------------
E--------------------------------------------

49. Us and Them - Pink Floyd 10:16
E---------5--------7---------9--------7--------0---
B-------5--------7--------10--------8--------3----
G-----7--------9--------10--------7--------2------
D---0--------0--------0---------0--------0---------
A-----------------------------------------------------
E-----------------------------------------------------

50. Sweet City Woman - The Stampeders 10:46
E---7--10----------5--7-----------3--5--------- 
B---8--8--(x2)----5--5--(x4)----3--3--(x2)--
G---7--7-----------5--5-----------4--4---------
D--------------------------------------------------
A--------------------------------------------------
E--------------------------------------------------

51. A National Acrobat - Black Sabbath 10:58
E--------------------------------------------------------------------------------
B--------------------------------------------------------------------------------
G-----------------------------------------------1-------------------------------
D-----------------------------2p1----------------4------------1-2-1h2p1--
A---2h4-4-4---2h4-2h4--------2h4-4-4--------2------------------------
E------------------------------------------------------------4------------------

52. Live and Let Die - Wings 11:07
E---3-5-6-----------------
B-----------3-5-6---------
G-------------------5-3--- (x4)
D---------------------------
A---------------------------
E---------------------------

53. Close to the Edge - Yes 11:18
E---15-14---------14-14----------14-14--------------------
B-----------15-17----------15-17----------------------------
G---------------------------------------------14-14--14-14-- (x2)
D-----------------------------------------------------------------
A------------------------------------------------------------------
E------------------------------------------------------------------

E-----------------------------------------14--12--
B------------------15-14--------------------------
G---14-12--14-----------14-12--14-----------
D---------------------------------------------------
A---------------------------------------------------
E----------------------------------------------------

54. Fly By Night - Rush 11:31
E---2--2-----3--3-------------3--------3----------3----------------- 
B---3--3-----3--3-------------3--------3----------3---2---0---2---
G---2--2-----------------------0--------0----------0---2---0---2---
D---0--0-----2--2----------2--------0----------0------2---0---2---
A---------------------0-2-3-------2--------0-1---------0---0---0---
E------------------------------------------------------------------------

55.Deuce - KISS 11:40
E-----------------------------------------------
B-----------------------------------------------
G---------------4--6--4----4--/6--4---------
D---6--6--6---4--6--4----4--/6--4--6--4--
A---6--6--6----------------------------6--4--
E------------------------------------------------

56. Shine On Your Crazy Diamond - Pink Floyd 11:48
E-----------------0------------------------------------------
B--------6-------------------6-------5---------------------
G------------0-----(x3)----------0--3---------------------
D---8--------------------8-----------5---------------------
A--------------------------------------3----3-(x8)--3/5--
E--------------------------------------------1-------1/3---

57. Oowatanite - April Wine 12:04 
E----------------------------------------
B----------------------------------------
G----------------------2-------------4-- (x2)
D---2-1----2-1------2----2-1-----4--
A---------2-------0---0---------2--2--
E----------------------------------------

58. Shout It Out Loud - KISS 12:17 
E-----------------------------------------------------
B-----------------------------------------------------
G--4---4--4--4--4--4------------------------------
D--4---2--4--2--4--2---7--6--4--2--1-2-1-----
A--2-------2------2------0---------------------4---
E-----------------------------------------------------

59. Dirty Deeds - AC/DC 12:33
E---------------------------------------
B-------------------------------3-------
G-------------------2-----------2-------
D---2-----5--2------2---2-------0---2---
A---2-----5--2------0---2-----------2---
E---0-----3--0----------0-----------0---

60. God of Thunder - KISS 12:42
E--------------------------------------------------------------------------------
B--------------------------------------------------------------------------------
G---------------------------------------------------------5---5--7-7b--5-7-- (x2)
D-------------------------------5b-----------------------5---5--7-7b--5-7--
A------7---5-7------7---5-7------------7-----5-7-----7---------------------
E-0-0---7------0-0---7-----------0-0-----7----------------------------------

61. Never Say Die - Black Sabbath 12:51
E-----------------------
B-----------------------
G---2---4---7---2----
D---2---4---7---2----
A---0---2---5---0----
E-----------------------

61. I Was Made For Lovin' You - KISS 13:04
E--------------------------------------------------------------
B--------------------------------------------------------------
G-----14--12---14-14---12------------7--5---9--9--7--
D-----14--14---14-14---14------------7--7---9--9--7--
A---------------------------------0----------------7--7--5--
E---0---------------------------------------------------------

63. Message In A Bottle - The Police 13:18
E--------------------------------------------------
B--------------------------------------------------
G-----------8-------------------------------------
D-------6-------------9--------11---------6/7--
A---4-------------7---------9----------4---------
E--------------5---------7----------2-------------

64. I Don't Know - Ozzy 13:27
E--------------------------------------------------------------------------------------------------------------------------
B--------------------------------------------------------------------------------------------------------------------------
G-------2------------------------------------4-------------------------------------5-------------------------------------  G D
D-------2------------------------------------4-------------------------------------5-------------------------------------
A-------0--0-0-0-0--0-0-0-0--0-0-0-0--0--0-0-0-0--0-0-0-0--0-0-0-0--0--0-0-0-0--0-0-0-0--0-0-0-0--
E--12\---------------------------------------------------------------------------------------------------------------------

65. Turning Japanese - The Vapors 13:45
E---15-15-15-15--13-13--10-10--13-- (x2)
B---15-15-15-15--13-13--10-10--13--
G----------------------------------------------
D----------------------------------------------
A----------------------------------------------
E----------------------------------------------

E------------------------------------------------------------------------------------
B-------------------------------13-12---------------------------------------------
G--------12--------12-----12-------12------------------------------------------
D--------12--------12--12--------------------14-------14-------12-13-14--
A---10--10--10--10--------------------------14-------14---14---------------
E-------------------------------------------12--12--12--12---------------------

66. Suicide Solution - Ozzy 14:02
E--------------------------------------------------------
B--------------------------------------------------------
G---------2--------5\--0--2---------5\--0--2--------
D---------2--------5\--0--2---------5\--0--2--------
A---------0--0--0------------0--0---0----------------
E---12\-------------------------------------------3b--

67. Whip It - Devo 14:11
E-------------------------10----------- (x4)
B--------------------------------10----
G---------------------------------------
D------------------------12------------
A---------------------5---------12-----
E--12\--0-0--5--7--------------------

68. Echo Beach - Martha and the Muffins 14:19
E-------------------------------------
B-----1--0-----3------3-------0---
G-----------0---------------0-------
D---------------0---0---------------
A--0---------------------3----------
E-------------------------------------
 
69. Denim and Leather - Saxon 14:31
E--------------------------------------------
B--------------------------------------------
G-----------------2-------------------------
D---2--2-----------(x3)------5-------5---
A---0--0---3h4-----------0--3---0--3---
E--------------------------------------------

70. You Got Another Thing Coming - Judas Priest 14:43
E-----------------------------------------------
B----5-----------------------------------------
G----4----4-------------2---2-------2---4---
D----2----4----4-------2---2-------2---4---
A----------2----4---------------4-------------
E----------------2------------------------------

71. Red Barchetta - Rush 14:56
E-------------------------------------------------------7--/9----10--9------
B-------------------------------------------------------8--/10--10--10-----
G------------2------------2--2---------------2-------7--/9----9----9------
D-----2-----0------2-----0--0-------2------0-------------------------------
A-----0-------------0-----------------0---------------------------------------
E-3b----3b----3b----3b--------3b----3b-----3b-------------------------

72. Metal On Metal - Anvil 15:04
E--------------------------------------------------
B--------------------------------------------------
G--------------------------------------------------
D--------------------------------------------------
A---4-------4---7---7----4--------4---9---9---
E---2---0---2---5---5----2---0---2---7---7---

E---------------------------------------------
B---------------------------------------------
G---------------------------------------------
D---------------------------------------------
A---4-------4---7---7----4--------4---3---
E---2---0---2---5---5----2---0---2---1---

73. Invaders - Iron Maiden 15:13
E----------------------------------------------------------------------------
B----------------------------------------------------------------------------
G----------------------------------------------------------------------------
D---------------7-5----5--5---------------------------7-5-----5--5--7--
A--0---0-5-7-------7--------0-5-3-0--0----0-5-7-------0--3--3--5--
E----------------------------------------------------------------------------

74. Hungry Like the Wolf - Duran Duran 15:24 
E----------0--0-------------------- 
B----------0--0--------------------
G-----------------2-1-----2-1----- (x4)
D-----------------------2-------2--
A-----------------------------------
E---12\0--------------------------

75. The Helion - Judas Priest 15:39
E---------------------------------7--5------------------------
B----------8--7------------------------8--------------5------
G----------------9--(x2)------------------------5--------4--
D----------------------------7----------------5-----0--------
A------7-----------------5----------------3------------------
E---0---------------------------------------------------------

76. Zero the Hero - Black Sabbath 15:55
E-----------------------------------------------------------------------------------
B----------------------------------------------------------------------------------
G------------------------------------------------------6---4----------------------
D------------------------------------------------------6---4---4---4---4---6---
A-----------------------------0-------------------2---4---2---4---4---4---6---
E---0-1-2-2-(x4)-0-1-2------2-3-4-4-(x4)--------------------2---2---4---

77. Legs - ZZ Top 16:07
E-------0--0--0---------------------
B------/5--5--5--------------------
G------/4--4--4---2h3p2-0h1--
D------------------------------------
A------------------------------------
E---0--------------------------------

78. Love Will Find a Way - Yes 16:17
E-----------------------------------------------------------------------------------
B------------------------------------------------------------------------------2---
G------------------------------------------------------------4-----------4---2---
D--------------------------5----------------------2-----4-----------4-------2---
A---0--4--5-------4--5-----5--4--0--0-0-4------2--------0-------------0---
E--------------3---------------------------------------------------3--------------

79. Don't Wanna Let You Go - Quiet Riot 16:26
E-------7--7-------7----------------7--7-----7---
B-------8--7-------5---7-----------8--7-----5---
G-------9--7-------5---7--(x3)----9--7-----5---
D------------------------0--------------------------
A--------------0--------------------------------0--
E---0-----------------------------0-----------------

80. Looks That Kill - Motley Crue 16:42 
E-------------------------------------------------------------------
B-------------------------------------------------------------------
G------------9-----------9----------7----------7----------7\6---
D------------7-----------7----------5----------5----------5\4---
A----0--0-------0--0-------0--0------0--0-------0--0----------
E--------------------------------------------------------------------

81. Shout At the Devil - Motley Crue 16:51 
E--------------------------------------------------------------------
B-------------------------------------------------------------------
G-----------5------------7------------5-------------------7---5--
D-----------5------------7------------5------------5----------5--
A----0--0--------0--0--------0--0---------5--7------7---------
E-------------------------------------------------------------------

82. Love Bites - Judas Priest 17:01
E------------------------------------------------------------------
B------------------------------------------------------------------
G------------------------------------------------------------------
D---6---6---4---6----------9--8--6--4--2----4--6----9--6--
A---4---4---2---4---(x2)--7--6--4--2--0----2--4----7--4--
E------------------------------------------------------------------

E----------------------------------
B----------------------------------
G----------------------------------
D---9--8--6--4--2----4---------
A---7--6--4--2--0----2---6----
E----------------------------4----

83. Fade to Black - Metallica 17:17
E---------------------------------------------------------------------
B---------------------------------------------------------------------
G-----------0--------------------------------0-----------------------
D-------4------4-----4-------4---------4-------4-----4-------4---
A---2-------------2-------5--------0---------------0-------5------
E---------------------------------------------------------------------

E--------------------------------------
B--------------------------------------
G-----------2-------------------------
D-------2-------2------2--------2---
A---4---------------4-------0--------
E--------------------------------------

E---------------------------------------------------------------------
B------------------------------------------------------------0---3--
G-----------------------------------------------1--------1----------
D-----------0----------------2-------------2--------2--------------
A-------3----------------2------2----2----------2------------------
E---1-----------1---4-----------------------------------------------

84. Danger Zone ( Top Gun ) - Kenny Loggins 17:32 
E------------------------------------------------
B-----------------------------------------------
G---6--/8--x--x--8--x--8--x--8--8--8-----
D---6--/8--x--x--8--x--8--x--8--8--8-----
A---4--/6--x--x--6--x--6--x--6--6--6-----
E-----------------------------------------------

E----------------------------------------------------
B----------------------------------------------------
G---6--/8--x--x--8--x--8--x--8--/11-11---6--
D---6--/8--x--x--8--x--8--x--8--/11-11---6--
A---4--/6--x--x--6--x--6--x--6--/9--/9----4--
E----------------------------------------------------

85. Master of Puppets - Metallica 17:41 
E---------------------------
B---------------------------
G---------------------------
D--2-------12--11--10---
A--2-------12--11--10---
E--0-------10---9---8-----

E-----------------------------------------------------------------------------------------
B-----------------------------------------------------------------------------------------
G-----------------------------------------------------------------------------------------
D--------------------------12--11--10-------------------------------------------------
A--------------------------12--11--10-------------------------------------------------
E--0-0-12-0-0-11-0-0-10--9---8-------0-0-7-0-0-6-0-0-5-0-4-0-3-0-2-1--(x4)

86. You Gotta Fight For Your Right To Party - The Beastie Boys 17:55
E-------------------------------------------------------------------
B-------------------------------------------------------------------
G--------2---------------------------------------------------------
D--------2------2--2---5/--7--------------2--2-----------------
A--------0------0--0---3/--5--(x7)-------0--0-----------------
E----0----------------------------------3b------------------------

87. Raining Blood - Slayer 18:09
E--------------------------------------------------
B--------------------------------------------------
G--------------------------------------------------
D----------------8-9-8-----8-7----7-6---------
A-------------7----------9-------8--------(x4)--
E----0-0-0---------------------------------------

88. Talk Dirty To Me - Poison 18:23
E-------------------------------------------------------------------------------------------------
B-------------------------------------------------------------------------------------------------
G--5---5--5-5--/7---7--7-7--11/12-12-12--11/12-12-12--11/12-12-12---12-12-
D--5---5--5-5--/7---7--7-7--11/12-12-12--11/12-12-12--11/12-12-12---12-12-
A--3---3--3-3--/5---5--5-5---9/10--10-10--9/10---10-10--9/10--10-10---10-10-
E-------------------------------------------------------------------------------------------------

89. Sweet Child O' Mine Solo - Guns N' Roses 18:37 
E-------------------------------------------------------------------------------------
B---9--7--6--(x2)----9-7------------9--7----11-----------------14--14b------
G-----------------------------8--(x2)---------------13--11--13b-----------10--
D-------------------------------------------------------------------------------------
A-------------------------------------------------------------------------------------
E--------------------------------------------------------------------------------------

90. Dead or Alive - Bon Jovi 18:51
E--------13----------12----------10----------8---------5----------3-----3\1--
B------------------------------------------------------------------------------------
G----14---14---12----12---10----10----9----9---5----5----4----4---4\2--
D--0----------0-------------0------------0----------0--------0------------------
A------------------------------------------------------------------------------------
E------------------------------------------------------------------------------------

E------------------------
B-----------------------
G-----------------------
D------------0--3--0--
A---0--0--3-----------
E-----------------------

91. Devil Inside - INXS 19:11
E-----------------------------------------------------------------
B-----------------------------------------------------------------
G-----------------------------------------------------------------
D------------------------------1p0------------------------------
A---3--3--------1--3--1--3--------3--3--------1--3--1--3--
E---------3--3------------------------------3--3----------------

92. One (Intro) - Metallica 19:23
E----------------------------------------------------------------
B----------------------------------------------------------------
G------------------------------------------------------------0--
D-------4-----0-----4-----0------4------0------4-----0-----
A---2-----2--------------------2-----2------------------------
E-----------------3-----3----------------------3-----3--------

E--------------------------------------------------------
B--------------------------------------------------------
G--------------------------------------------------------
D------4-----0-----4-----0-----4------0--------------
A---2-----2-----0-----0----------------------2-----2--
E-----------------------------3-----3------0-----2-----

93. Shock to the System - Yes 19:39
E---------------------------------------------
B---------------------------------------------
G---0-------------------0--------------------
D------2--0---------------2--0--------------
A------------2p0----------------2p0----4--
E-------------------3-0-----------------3----

E--------------------------------------------------------------
B-------------------------------------------------------------
G---0-------------------0------------------------------------
D------2--0---------------2--0------------------------------
A------------2p0----------------2p0---0---1p0-1p0-----
E-------------------3-0----------------3-----------------3--

94. In Bloom - Nirvana 19:48 
E----------------------------------------------------
B----------------------------------------------------
G----------------------------------------------------
D----8----8--8--8----5-----3-----3--3--3---6---
A----8----8--8--8----5-----3-----3--3--3---6---
E----6----6--6--6----3-----1-----1--1--1---4---

E---------------------------------------------------------------------- 
B----------------------------------------------------------------------
G--------------------------------8------------------------------------
D----8------------4-------------8-( 5 X )---9--9--9----7--7--7--
A----8-( 5 X )----4-( 5 X )----6------------9--9--9----7--7--7--
E----6-------------2--------------------------7--7--7----5--5--5--

95. Symphony of Destruction - Megadeth 20:10
E----------------------------------------------------------
B----------------------------------------------------------
G----------------------------------------------------------
D-----------3-2--2-----3-2--2---------------3-2--2---
A-----------3-2--2-----3-2--2---------------3-2--2---
E--1-3-1--1-0--0-----1-0--0-----1-3-1---1-0--0---

96. Killing in the Name of - Rage Against the Machine 20:19
E-------------------------------------
B-------------------------------------
G--------------------------11--12--
D-----------------11--12-----------
A-------------------------------------
E---0---0---0-----------------------

97. Courage - The Tragically Hip 20:28
E-------------------------------------------------
B-------------------------------------------------
G------0--2-----------2-------------------------
D------0--2-------2-----5-----2--5--4---------
A----------0-------------------------------5-----
E------3------------------------------------------

E--------------------------------------------------
B--------------------------------------------------
G------0--2-----------6--4--------4--2---------
D------0--2-----------7--5--------5--4---------
A----------0-------7-----------5-----------------
E------3------------------------------------0-----

98. Come Out and Play - Offspring 20:38 
E------------------------------------------------------
B------------------------------------------------------
G-----------------------------------------------------
D---------1--2--2/4\2--1---------(x4)------------
A---2--3---------------------3--2--------2--3--2--
E------------------------------------------------------

99. Californication - Red Hot Chili Peppers 20:47
E------------------------------------------------
B---------0--1----------------------------------
G-----------------------------------0-2---------
D-----2--------2-0h2p0---------------3--0--
A--0------------------------3---3--------------
E------------------------------1-----------------

100. The Day That Never Comes - Metallica 20:59
E----------12---------------12---------------14-----------------12---------
B------13----13--------12----12--------15----15---------13----13------
G--14-----------14--12----------12--12----------12--14------------14--
D-------------------------------------------------------------------------------
A--------------------------------------------------------------------------------
E--------------------------------------------------------------------------------